0
SECTION
2
ENTITIES
0
LINE
10
3.550000
20
0.000000
30
0
11
3.597284
21
0.634298
31
0
0
LINE
10
3.597284
20
0.634298
30
0
11
3.529068
21
1.284476
31
0
0
LINE
10
3.529068
20
1.284476
30
0
11
3.341415
21
1.929167
31
0
0
LINE
10
3.341415
20
1.929167
30
0
11
3.034387
21
2.546153
31
0
0
LINE
10
3.034387
20
2.546153
30
0
11
2.612217
21
3.113120
31
0
0
LINE
10
2.612217
20
3.113120
30
0
11
2.083333
21
3.608439
31
0
0
LINE
10
2.083333
20
3.608439
30
0
11
1.460236
21
4.011965
31
0
0
LINE
10
1.460236
20
4.011965
30
0
11
0.759228
21
4.305798
31
0
0
LINE
10
0.759228
20
4.305798
30
0
11
0.000000
21
4.475000
31
0
0
LINE
10
0.000000
20
4.475000
30
0
11
-0.794923
21
4.508231
31
0
0
LINE
10
-0.794923
20
4.508231
30
0
11
-1.600844
21
4.398284
31
0
0
LINE
10
-1.600844
20
4.398284
30
0
11
-2.391667
21
4.142488
31
0
0
LINE
10
-2.391667
20
4.142488
30
0
11
-3.140732
21
3.742978
31
0
0
LINE
10
-3.140732
20
3.742978
30
0
11
-3.821711
21
3.206796
31
0
0
LINE
10
-3.821711
20
3.206796
30
0
11
-4.409513
21
2.545833
31
0
0
LINE
10
-4.409513
20
2.545833
30
0
11
-4.881181
21
1.776605
31
0
0
LINE
10
-4.881181
20
1.776605
30
0
11
-5.216746
21
0.919853
31
0
0
LINE
10
-5.216746
20
0.919853
30
0
11
-5.400000
21
0.000000
31
0
0
LINE
10
-5.400000
20
0.000000
30
0
11
-5.419178
21
-0.955547
31
0
0
LINE
10
-5.419178
20
-0.955547
30
0
11
-5.267499
21
-1.917213
31
0
0
LINE
10
-5.267499
20
-1.917213
30
0
11
-4.943562
21
-2.854167
31
0
0
LINE
10
-4.943562
20
-2.854167
30
0
11
-4.451569
21
-3.735310
31
0
0
LINE
10
-4.451569
20
-3.735310
30
0
11
-3.801375
21
-4.530302
31
0
0
LINE
10
-3.801375
20
-4.530302
30
0
11
-3.008333
21
-5.210586
31
0
0
LINE
10
-3.008333
20
-5.210586
30
0
11
-2.092973
21
-5.750397
31
0
0
LINE
10
-2.092973
20
-5.750397
30
0
11
-1.080478
21
-6.127693
31
0
0
LINE
10
-1.080478
20
-6.127693
30
0
11
-0.000000
21
-6.325000
31
0
0
LINE
10
-0.000000
20
-6.325000
30
0
11
1.116172
21
-6.330125
31
0
0
LINE
10
1.116172
20
-6.330125
30
0
11
2.233582
21
-6.136715
31
0
0
LINE
10
2.233582
20
-6.136715
30
0
11
3.316667
21
-5.744635
31
0
0
LINE
10
3.316667
20
-5.744635
30
0
11
4.329889
21
-5.160160
31
0
0
LINE
10
4.329889
20
-5.160160
30
0
11
5.238893
21
-4.395953
31
0
0
LINE
10
5.238893
20
-4.395953
30
0
11
6.011660
21
-3.470833
31
0
0
LINE
10
6.011660
20
-3.470833
30
0
11
6.619612
21
-2.409342
31
0
0
LINE
10
6.619612
20
-2.409342
30
0
11
7.038640
21
-1.241102
31
0
0
LINE
10
7.038640
20
-1.241102
30
0
11
7.250000
21
-0.000000
31
0
0
LINE
10
7.250000
20
-0.000000
30
0
11
7.241073
21
1.276796
31
0
0
LINE
10
7.241073
20
1.276796
30
0
11
7.005931
21
2.549950
31
0
0
LINE
10
7.005931
20
2.549950
30
0
11
6.545709
21
3.779167
31
0
0
LINE
10
6.545709
20
3.779167
30
0
11
5.868752
21
4.924467
31
0
0
LINE
10
5.868752
20
4.924467
30
0
11
4.990532
21
5.947484
31
0
0
LINE
10
4.990532
20
5.947484
30
0
11
3.933333
21
6.812733
31
0
0
LINE
10
3.933333
20
6.812733
30
0
11
2.725711
21
7.488828
31
0
0
LINE
10
2.725711
20
7.488828
30
0
11
1.401727
21
7.949587
31
0
0
LINE
10
1.401727
20
7.949587
30
0
11
0.000000
21
8.175000
31
0
0
LINE
10
0.000000
20
8.175000
30
0
11
-1.437421
21
8.152020
31
0
0
LINE
10
-1.437421
20
8.152020
30
0
11
-2.866319
21
7.875146
31
0
0
LINE
10
-2.866319
20
7.875146
30
0
11
-4.241667
21
7.346782
31
0
0
LINE
10
-4.241667
20
7.346782
30
0
11
-5.519046
21
6.577343
31
0
0
LINE
10
-5.519046
20
6.577343
30
0
11
-6.656075
21
5.585110
31
0
0
LINE
10
-6.656075
20
5.585110
30
0
11
-7.613807
21
4.395833
31
0
0
LINE
10
-7.613807
20
4.395833
30
0
11
-8.358044
21
3.042079
31
0
0
LINE
10
-8.358044
20
3.042079
30
0
11
-8.860534
21
1.562351
31
0
0
LINE
10
-8.860534
20
1.562351
30
0
11
-9.100000
21
0.000000
31
0
0
LINE
10
-9.100000
20
0.000000
30
0
11
-9.062967
21
-1.598046
31
0
0
LINE
10
-9.062967
20
-1.598046
30
0
11
-8.744362
21
-3.182687
31
0
0
LINE
10
-8.744362
20
-3.182687
30
0
11
-8.147856
21
-4.704167
31
0
0
LINE
10
-8.147856
20
-4.704167
30
0
11
-7.285934
21
-6.113624
31
0
0
LINE
10
-7.285934
20
-6.113624
30
0
11
-6.179689
21
-7.364666
31
0
0
LINE
10
-6.179689
20
-7.364666
30
0
11
-4.858333
21
-8.414880
31
0
0
LINE
10
-4.858333
20
-8.414880
30
0
11
-3.358448
21
-9.227259
31
0
0
LINE
10
-3.358448
20
-9.227259
30
0
11
-1.722976
21
-9.771481
31
0
0
LINE
10
-1.722976
20
-9.771481
30
0
11
-0.000000
21
-10.025000
31
0
0
LINE
10
-0.000000
20
-10.025000
30
0
11
1.758670
21
-9.973914
31
0
0
LINE
10
1.758670
20
-9.973914
30
0
11
3.499056
21
-9.613578
31
0
0
LINE
10
3.499056
20
-9.613578
30
0
11
5.166667
21
-8.948929
31
0
0
LINE
10
5.166667
20
-8.948929
30
0
11
6.708203
21
-7.994525
31
0
0
LINE
10
6.708203
20
-7.994525
30
0
11
8.073257
21
-6.774267
31
0
0
LINE
10
8.073257
20
-6.774267
30
0
11
9.215954
21
-5.320833
31
0
0
LINE
10
9.215954
20
-5.320833
30
0
11
10.096475
21
-3.674816
31
0
0
LINE
10
10.096475
20
-3.674816
30
0
11
10.682429
21
-1.883600
31
0
0
LINE
10
10.682429
20
-1.883600
30
0
11
10.950000
21
-0.000000
31
0
0
LINE
10
10.950000
20
-0.000000
30
0
11
10.884861
21
1.919295
31
0
0
LINE
10
10.884861
20
1.919295
30
0
11
10.482793
21
3.815425
31
0
0
LINE
10
10.482793
20
3.815425
30
0
11
9.750003
21
5.629167
31
0
0
LINE
10
9.750003
20
5.629167
30
0
11
8.703116
21
7.302781
31
0
0
LINE
10
8.703116
20
7.302781
30
0
11
7.368846
21
8.781848
31
0
0
LINE
10
7.368846
20
8.781848
30
0
11
5.783333
21
10.017027
31
0
0
LINE
10
5.783333
20
10.017027
30
0
11
3.991185
21
10.965691
31
0
0
LINE
10
3.991185
20
10.965691
30
0
11
2.044225
21
11.593376
31
0
0
LINE
10
2.044225
20
11.593376
30
0
11
0.000000
21
11.875000
31
0
0
LINE
10
0.000000
20
11.875000
30
0
11
-2.079919
21
11.795808
31
0
0
LINE
10
-2.079919
20
11.795808
30
0
11
-4.131793
21
11.352009
31
0
0
LINE
10
-4.131793
20
11.352009
30
0
11
-6.091667
21
10.551076
31
0
0
LINE
10
-6.091667
20
10.551076
30
0
11
-7.897360
21
9.411707
31
0
0
LINE
10
-7.897360
20
9.411707
30
0
11
-9.490439
21
7.963424
31
0
0
LINE
10
-9.490439
20
7.963424
30
0
11
-10.818101
21
6.245833
31
0
0
LINE
10
-10.818101
20
6.245833
30
0
11
-11.834907
21
4.307554
31
0
0
LINE
10
-11.834907
20
4.307554
30
0
11
-12.504323
21
2.204850
31
0
0
LINE
10
-12.504323
20
2.204850
30
0
11
-12.800000
21
0.000000
31
0
0
LINE
10
-12.800000
20
0.000000
30
0
11
-12.706756
21
-2.240544
31
0
0
LINE
10
-12.706756
20
-2.240544
30
0
11
-12.221225
21
-4.448162
31
0
0
LINE
10
-12.221225
20
-4.448162
30
0
11
-11.352150
21
-6.554167
31
0
0
LINE
10
-11.352150
20
-6.554167
30
0
11
-10.120298
21
-8.491939
31
0
0
LINE
10
-10.120298
20
-8.491939
30
0
11
-8.558003
21
-10.199031
31
0
0
LINE
10
-8.558003
20
-10.199031
30
0
11
-6.708333
21
-11.619174
31
0
0
LINE
10
-6.708333
20
-11.619174
30
0
11
-4.623922
21
-12.704122
31
0
0
LINE
10
-4.623922
20
-12.704122
30
0
11
-2.365474
21
-13.415270
31
0
0
LINE
10
-2.365474
20
-13.415270
30
0
11
-0.000000
21
-13.725000
31
0
0
LINE
10
-0.000000
20
-13.725000
30
0
11
2.401168
21
-13.617703
31
0
0
LINE
10
2.401168
20
-13.617703
30
0
11
4.764531
21
-13.090440
31
0
0
LINE
10
4.764531
20
-13.090440
30
0
11
7.016667
21
-12.153223
31
0
0
LINE
10
7.016667
20
-12.153223
30
0
11
9.086517
21
-10.828889
31
0
0
LINE
10
9.086517
20
-10.828889
30
0
11
10.907622
21
-9.152581
31
0
0
LINE
10
10.907622
20
-9.152581
30
0
11
12.420248
21
-7.170833
31
0
0
LINE
10
12.420248
20
-7.170833
30
0
11
13.573338
21
-4.940291
31
0
0
LINE
10
13.573338
20
-4.940291
30
0
11
14.326217
21
-2.526099
31
0
0
LINE
10
14.326217
20
-2.526099
30
0
11
14.650000
21
-0.000000
31
0
0
LINE
10
14.650000
20
-0.000000
30
0
11
14.528650
21
2.561793
31
0
0
LINE
10
14.528650
20
2.561793
30
0
11
13.959656
21
5.080899
31
0
0
LINE
10
13.959656
20
5.080899
30
0
11
12.954297
21
7.479167
31
0
0
LINE
10
12.954297
20
7.479167
30
0
11
11.537480
21
9.681096
31
0
0
LINE
10
11.537480
20
9.681096
30
0
11
9.747160
21
11.616213
31
0
0
LINE
10
9.747160
20
11.616213
30
0
11
7.633333
21
13.221321
31
0
0
LINE
10
7.633333
20
13.221321
30
0
11
5.256660
21
14.442554
31
0
0
LINE
10
5.256660
20
14.442554
30
0
11
2.686723
21
15.237164
31
0
0
LINE
10
2.686723
20
15.237164
30
0
11
-0.000000
21
15.575000
31
0
0
LINE
10
-0.000000
20
15.575000
30
0
11
-2.722418
21
15.439597
31
0
0
LINE
10
-2.722418
20
15.439597
30
0
11
-5.397268
21
14.828872
31
0
0
LINE
10
-5.397268
20
14.828872
30
0
11
-7.941667
21
13.755370
31
0
0
LINE
10
-7.941667
20
13.755370
30
0
11
-10.275674
21
12.246072
31
0
0
LINE
10
-10.275674
20
12.246072
30
0
11
-12.324804
21
10.341738
31
0
0
LINE
10
-12.324804
20
10.341738
30
0
11
-14.022395
21
8.095833
31
0
0
LINE
10
-14.022395
20
8.095833
30
0
11
-15.311769
21
5.573028
31
0
0
LINE
10
-15.311769
20
5.573028
30
0
11
-16.148112
21
2.847348
31
0
0
LINE
10
-16.148112
20
2.847348
30
0
11
-16.500000
21
0.000000
31
0
0
LINE
10
-16.500000
20
0.000000
30
0
11
-16.350544
21
-2.883042
31
0
0
LINE
10
-16.350544
20
-2.883042
30
0
11
-15.698087
21
-5.713637
31
0
0
LINE
10
-15.698087
20
-5.713637
30
0
11
-14.556444
21
-8.404167
31
0
0
LINE
10
-14.556444
20
-8.404167
30
0
11
-12.954663
21
-10.870253
31
0
0
LINE
10
-12.954663
20
-10.870253
30
0
11
-10.936317
21
-13.033395
31
0
0
LINE
10
-10.936317
20
-13.033395
30
0
11
-8.558333
21
-14.823468
31
0
0
LINE
10
-8.558333
20
-14.823468
30
0
11
-5.889397
21
-16.180985
31
0
0
LINE
10
-5.889397
20
-16.180985
30
0
11
-3.007972
21
-17.059059
31
0
0
LINE
10
-3.007972
20
-17.059059
30
0
11
-0.000000
21
-17.425000
31
0
0
LINE
10
-0.000000
20
-17.425000
30
0
11
3.043667
21
-17.261491
31
0
0
LINE
10
3.043667
20
-17.261491
30
0
11
6.030005
21
-16.567303
31
0
0
LINE
10
6.030005
20
-16.567303
30
0
11
8.866667
21
-15.357517
31
0
0
LINE
10
8.866667
20
-15.357517
30
0
11
11.464831
21
-13.663254
31
0
0
LINE
10
11.464831
20
-13.663254
30
0
11
13.741986
21
-11.530896
31
0
0
LINE
10
13.741986
20
-11.530896
30
0
11
15.624542
21
-9.020833
31
0
0
LINE
10
15.624542
20
-9.020833
30
0
11
17.050201
21
-6.205765
31
0
0
LINE
10
17.050201
20
-6.205765
30
0
11
17.970006
21
-3.168597
31
0
0
LINE
10
17.970006
20
-3.168597
30
0
11
18.350000
21
-0.000000
31
0
0
LINE
10
18.350000
20
-0.000000
30
0
11
17.950000
21
-0.000000
31
0
0
LINE
10
17.950000
20
-0.000000
30
0
11
17.576083
21
-3.099138
31
0
0
LINE
10
17.576083
20
-3.099138
30
0
11
16.674324
21
-6.068957
31
0
0
LINE
10
16.674324
20
-6.068957
30
0
11
15.278131
21
-8.820833
31
0
0
LINE
10
15.278131
20
-8.820833
30
0
11
13.435568
21
-11.273780
31
0
0
LINE
10
13.435568
20
-11.273780
30
0
11
11.207716
21
-13.356836
31
0
0
LINE
10
11.207716
20
-13.356836
30
0
11
8.666667
21
-15.011107
31
0
0
LINE
10
8.666667
20
-15.011107
30
0
11
5.893197
21
-16.191426
31
0
0
LINE
10
5.893197
20
-16.191426
30
0
11
2.974207
21
-16.867568
31
0
0
LINE
10
2.974207
20
-16.867568
30
0
11
-0.000000
21
-17.025000
31
0
0
LINE
10
-0.000000
20
-17.025000
30
0
11
-2.938513
21
-16.665136
31
0
0
LINE
10
-2.938513
20
-16.665136
30
0
11
-5.752589
21
-15.805108
31
0
0
LINE
10
-5.752589
20
-15.805108
30
0
11
-8.358333
21
-14.477058
31
0
0
LINE
10
-8.358333
20
-14.477058
30
0
11
-10.679202
21
-12.726977
31
0
0
LINE
10
-10.679202
20
-12.726977
30
0
11
-12.648245
21
-10.613138
31
0
0
LINE
10
-12.648245
20
-10.613138
30
0
11
-14.210034
21
-8.204167
31
0
0
LINE
10
-14.210034
20
-8.204167
30
0
11
-15.322210
21
-5.576828
31
0
0
LINE
10
-15.322210
20
-5.576828
30
0
11
-15.956621
21
-2.813583
31
0
0
LINE
10
-15.956621
20
-2.813583
30
0
11
-16.100000
21
0.000000
31
0
0
LINE
10
-16.100000
20
0.000000
30
0
11
-15.754188
21
2.777888
31
0
0
LINE
10
-15.754188
20
2.777888
30
0
11
-14.935892
21
5.436220
31
0
0
LINE
10
-14.935892
20
5.436220
30
0
11
-13.675985
21
7.895833
31
0
0
LINE
10
-13.675985
20
7.895833
30
0
11
-12.018386
21
10.084623
31
0
0
LINE
10
-12.018386
20
10.084623
30
0
11
-10.018559
21
11.939654
31
0
0
LINE
10
-10.018559
20
11.939654
30
0
11
-7.741667
21
13.408960
31
0
0
LINE
10
-7.741667
20
13.408960
30
0
11
-5.260460
21
14.452995
31
0
0
LINE
10
-5.260460
20
14.452995
30
0
11
-2.652958
21
15.045674
31
0
0
LINE
10
-2.652958
20
15.045674
30
0
11
-0.000000
21
15.175000
31
0
0
LINE
10
-0.000000
20
15.175000
30
0
11
2.617264
21
14.843241
31
0
0
LINE
10
2.617264
20
14.843241
30
0
11
5.119852
21
14.066676
31
0
0
LINE
10
5.119852
20
14.066676
30
0
11
7.433333
21
12.874911
31
0
0
LINE
10
7.433333
20
12.874911
30
0
11
9.490045
21
11.309795
31
0
0
LINE
10
9.490045
20
11.309795
30
0
11
11.231063
21
9.423981
31
0
0
LINE
10
11.231063
20
9.423981
30
0
11
12.607887
21
7.279167
31
0
0
LINE
10
12.607887
20
7.279167
30
0
11
13.583779
21
4.944091
31
0
0
LINE
10
13.583779
20
4.944091
30
0
11
14.134727
21
2.492334
31
0
0
LINE
10
14.134727
20
2.492334
30
0
11
14.250000
21
-0.000000
31
0
0
LINE
10
14.250000
20
-0.000000
30
0
11
13.932294
21
-2.456639
31
0
0
LINE
10
13.932294
20
-2.456639
30
0
11
13.197461
21
-4.803483
31
0
0
LINE
10
13.197461
20
-4.803483
30
0
11
12.073838
21
-6.970833
31
0
0
LINE
10
12.073838
20
-6.970833
30
0
11
10.601204
21
-8.895466
31
0
0
LINE
10
10.601204
20
-8.895466
30
0
11
8.829402
21
-10.522472
31
0
0
LINE
10
8.829402
20
-10.522472
30
0
11
6.816667
21
-11.806813
31
0
0
LINE
10
6.816667
20
-11.806813
30
0
11
4.627723
21
-12.714563
31
0
0
LINE
10
4.627723
20
-12.714563
30
0
11
2.331709
21
-13.223780
31
0
0
LINE
10
2.331709
20
-13.223780
30
0
11
-0.000000
21
-13.325000
31
0
0
LINE
10
-0.000000
20
-13.325000
30
0
11
-2.296015
21
-13.021347
31
0
0
LINE
10
-2.296015
20
-13.021347
30
0
11
-4.487114
21
-12.328245
31
0
0
LINE
10
-4.487114
20
-12.328245
30
0
11
-6.508333
21
-11.272764
31
0
0
LINE
10
-6.508333
20
-11.272764
30
0
11
-8.300888
21
-9.892613
31
0
0
LINE
10
-8.300888
20
-9.892613
30
0
11
-9.813880
21
-8.234823
31
0
0
LINE
10
-9.813880
20
-8.234823
30
0
11
-11.005740
21
-6.354167
31
0
0
LINE
10
-11.005740
20
-6.354167
30
0
11
-11.845348
21
-4.311354
31
0
0
LINE
10
-11.845348
20
-4.311354
30
0
11
-12.312832
21
-2.171085
31
0
0
LINE
10
-12.312832
20
-2.171085
30
0
11
-12.400000
21
0.000000
31
0
0
LINE
10
-12.400000
20
0.000000
30
0
11
-12.110400
21
2.135390
31
0
0
LINE
10
-12.110400
20
2.135390
30
0
11
-11.459029
21
4.170746
31
0
0
LINE
10
-11.459029
20
4.170746
30
0
11
-10.471691
21
6.045833
31
0
0
LINE
10
-10.471691
20
6.045833
30
0
11
-9.184022
21
7.706309
31
0
0
LINE
10
-9.184022
20
7.706309
30
0
11
-7.640245
21
9.105289
31
0
0
LINE
10
-7.640245
20
9.105289
30
0
11
-5.891667
21
10.204666
31
0
0
LINE
10
-5.891667
20
10.204666
30
0
11
-3.994985
21
10.976132
31
0
0
LINE
10
-3.994985
20
10.976132
30
0
11
-2.010460
21
11.401885
31
0
0
LINE
10
-2.010460
20
11.401885
30
0
11
0.000000
21
11.475000
31
0
0
LINE
10
0.000000
20
11.475000
30
0
11
1.974766
21
11.199453
31
0
0
LINE
10
1.974766
20
11.199453
30
0
11
3.854377
21
10.589814
31
0
0
LINE
10
3.854377
20
10.589814
30
0
11
5.583333
21
9.670617
31
0
0
LINE
10
5.583333
20
9.670617
30
0
11
7.111731
21
8.475431
31
0
0
LINE
10
7.111731
20
8.475431
30
0
11
8.396698
21
7.045666
31
0
0
LINE
10
8.396698
20
7.045666
30
0
11
9.403593
21
5.429167
31
0
0
LINE
10
9.403593
20
5.429167
30
0
11
10.106916
21
3.678617
31
0
0
LINE
10
10.106916
20
3.678617
30
0
11
10.490938
21
1.849835
31
0
0
LINE
10
10.490938
20
1.849835
30
0
11
10.550000
21
-0.000000
31
0
0
LINE
10
10.550000
20
-0.000000
30
0
11
10.288505
21
-1.814141
31
0
0
LINE
10
10.288505
20
-1.814141
30
0
11
9.720598
21
-3.538008
31
0
0
LINE
10
9.720598
20
-3.538008
30
0
11
8.869544
21
-5.120833
31
0
0
LINE
10
8.869544
20
-5.120833
30
0
11
7.766839
21
-6.517152
31
0
0
LINE
10
7.766839
20
-6.517152
30
0
11
6.451088
21
-7.688107
31
0
0
LINE
10
6.451088
20
-7.688107
30
0
11
4.966667
21
-8.602519
31
0
0
LINE
10
4.966667
20
-8.602519
30
0
11
3.362248
21
-9.237701
31
0
0
LINE
10
3.362248
20
-9.237701
30
0
11
1.689211
21
-9.579991
31
0
0
LINE
10
1.689211
20
-9.579991
30
0
11
-0.000000
21
-9.625000
31
0
0
LINE
10
-0.000000
20
-9.625000
30
0
11
-1.653517
21
-9.377558
31
0
0
LINE
10
-1.653517
20
-9.377558
30
0
11
-3.221640
21
-8.851382
31
0
0
LINE
10
-3.221640
20
-8.851382
30
0
11
-4.658333
21
-8.068470
31
0
0
LINE
10
-4.658333
20
-8.068470
30
0
11
-5.922574
21
-7.058248
31
0
0
LINE
10
-5.922574
20
-7.058248
30
0
11
-6.979516
21
-5.856509
31
0
0
LINE
10
-6.979516
20
-5.856509
30
0
11
-7.801446
21
-4.504167
31
0
0
LINE
10
-7.801446
20
-4.504167
30
0
11
-8.368485
21
-3.045879
31
0
0
LINE
10
-8.368485
20
-3.045879
30
0
11
-8.669044
21
-1.528586
31
0
0
LINE
10
-8.669044
20
-1.528586
30
0
11
-8.700000
21
0.000000
31
0
0
LINE
10
-8.700000
20
0.000000
30
0
11
-8.466611
21
1.492892
31
0
0
LINE
10
-8.466611
20
1.492892
30
0
11
-7.982167
21
2.905271
31
0
0
LINE
10
-7.982167
20
2.905271
30
0
11
-7.267397
21
4.195833
31
0
0
LINE
10
-7.267397
20
4.195833
30
0
11
-6.349657
21
5.327995
31
0
0
LINE
10
-6.349657
20
5.327995
30
0
11
-5.261931
21
6.270925
31
0
0
LINE
10
-5.261931
20
6.270925
30
0
11
-4.041667
21
7.000372
31
0
0
LINE
10
-4.041667
20
7.000372
30
0
11
-2.729511
21
7.499269
31
0
0
LINE
10
-2.729511
20
7.499269
30
0
11
-1.367962
21
7.758097
31
0
0
LINE
10
-1.367962
20
7.758097
30
0
11
0.000000
21
7.775000
31
0
0
LINE
10
0.000000
20
7.775000
30
0
11
1.332267
21
7.555664
31
0
0
LINE
10
1.332267
20
7.555664
30
0
11
2.588902
21
7.112951
31
0
0
LINE
10
2.588902
20
7.112951
30
0
11
3.733333
21
6.466323
31
0
0
LINE
10
3.733333
20
6.466323
30
0
11
4.733417
21
5.641066
31
0
0
LINE
10
4.733417
20
5.641066
30
0
11
5.562334
21
4.667352
31
0
0
LINE
10
5.562334
20
4.667352
30
0
11
6.199299
21
3.579167
31
0
0
LINE
10
6.199299
20
3.579167
30
0
11
6.630053
21
2.413142
31
0
0
LINE
10
6.630053
20
2.413142
30
0
11
6.847149
21
1.207337
31
0
0
LINE
10
6.847149
20
1.207337
30
0
11
6.850000
21
-0.000000
31
0
0
LINE
10
6.850000
20
-0.000000
30
0
11
6.644717
21
-1.171643
31
0
0
LINE
10
6.644717
20
-1.171643
30
0
11
6.243735
21
-2.272534
31
0
0
LINE
10
6.243735
20
-2.272534
30
0
11
5.665250
21
-3.270833
31
0
0
LINE
10
5.665250
20
-3.270833
30
0
11
4.932475
21
-4.138838
31
0
0
LINE
10
4.932475
20
-4.138838
30
0
11
4.072774
21
-4.853743
31
0
0
LINE
10
4.072774
20
-4.853743
30
0
11
3.116667
21
-5.398225
31
0
0
LINE
10
3.116667
20
-5.398225
30
0
11
2.096773
21
-5.760838
31
0
0
LINE
10
2.096773
20
-5.760838
30
0
11
1.046713
21
-5.936202
31
0
0
LINE
10
1.046713
20
-5.936202
30
0
11
-0.000000
21
-5.925000
31
0
0
LINE
10
-0.000000
20
-5.925000
30
0
11
-1.011018
21
-5.733770
31
0
0
LINE
10
-1.011018
20
-5.733770
30
0
11
-1.956165
21
-5.374520
31
0
0
LINE
10
-1.956165
20
-5.374520
30
0
11
-2.808333
21
-4.864176
31
0
0
LINE
10
-2.808333
20
-4.864176
30
0
11
-3.544259
21
-4.223884
31
0
0
LINE
10
-3.544259
20
-4.223884
30
0
11
-4.145152
21
-3.478195
31
0
0
LINE
10
-4.145152
20
-3.478195
30
0
11
-4.597152
21
-2.654167
31
0
0
LINE
10
-4.597152
20
-2.654167
30
0
11
-4.891622
21
-1.780405
31
0
0
LINE
10
-4.891622
20
-1.780405
30
0
11
-5.025255
21
-0.886088
31
0
0
LINE
10
-5.025255
20
-0.886088
30
0
11
-5.000000
21
0.000000
31
0
0
LINE
10
-5.000000
20
0.000000
30
0
11
-4.822822
21
0.850394
31
0
0
LINE
10
-4.822822
20
0.850394
30
0
11
-4.505304
21
1.639797
31
0
0
LINE
10
-4.505304
20
1.639797
30
0
11
-4.063103
21
2.345833
31
0
0
LINE
10
-4.063103
20
2.345833
30
0
11
-3.515293
21
2.949681
31
0
0
LINE
10
-3.515293
20
2.949681
30
0
11
-2.883617
21
3.436560
31
0
0
LINE
10
-2.883617
20
3.436560
30
0
11
-2.191667
21
3.796078
31
0
0
LINE
10
-2.191667
20
3.796078
30
0
11
-1.464036
21
4.022406
31
0
0
LINE
10
-1.464036
20
4.022406
30
0
11
-0.725463
21
4.114308
31
0
0
LINE
10
-0.725463
20
4.114308
30
0
11
0.000000
21
4.075000
31
0
0
LINE
10
0.000000
20
4.075000
30
0
11
0.689769
21
3.911875
31
0
0
LINE
10
0.689769
20
3.911875
30
0
11
1.323428
21
3.636088
31
0
0
LINE
10
1.323428
20
3.636088
30
0
11
1.883333
21
3.262029
31
0
0
LINE
10
1.883333
20
3.262029
30
0
11
2.355102
21
2.806702
31
0
0
LINE
10
2.355102
20
2.806702
30
0
11
2.727969
21
2.289038
31
0
0
LINE
10
2.727969
20
2.289038
30
0
11
2.995005
21
1.729167
31
0
0
LINE
10
2.995005
20
1.729167
30
0
11
3.153191
21
1.147668
31
0
0
LINE
10
3.153191
20
1.147668
30
0
11
3.203361
21
0.564839
31
0
0
LINE
10
3.203361
20
0.564839
30
0
11
3.150000
21
0.000000
31
0
0
ENDSEC
0
EOF
